Interfața site-ului a fost îmbunătățită și mai sus vedeți săgeți care indică unde se află acum fiecare element principal de navigare și căutare.

Psalmul 139
Autor: Decean  |  Album: fara album  |  Tematica: Diverse
Adaugata in 22/10/2009
    12345678910 0/10 X
Afisare acorduri:


Capo 2

e:------------------------------------------------------|
B:-----------------------------2------------------------|
G:----2--------------1---2--2-----2--1------------------|
D:-4-----4--------2---------------------2---------------|
A:-4-------4---2----------------------------------------|
E:------------------------------------------------------|

e:------------------------------------------------------|
B:---------------------------3--------------------------|
G:----2--------------1---2------------------------------|
D:-4-----4--------2------------------------------------|
A:-4-------4---2----------------------------------------|
E:------------------------------------------------------|



F#m       E   A  C#m 
Doamne Tu mă cunoşti 
F#m        E          A    Bm 
Ştii când stau jos sau mă ridic
F#m      E    A   C#m 
Gândul meu îl cunoşti 
F#m        E        A      Bm 
Ştii când umblu sau când eu dorm
F#m        E   A  C#m 
Tu cunoşti calea mea 
F#m     E    A   D 
Tu cunoşti viaţa mea 
  F#m  A  D 
Şi mă iubeşti 
   F#m  A  B 
Da,mă iubeşti 
  F#m  A  D 
Tu mă iubeşti 
  F#m  A  B 
Da,mă iubeşti... 

F#m  E  A  C#m   F#m  E  A  Bm 

F#m     E    A  C#m 
Mă înalţ către cer, 
F#m      E     A   Bm 
În lumina eu Te privesc 
F#m       E     A        C#m 
Eşti în splendoare-mbrăcat, 
F#m          E       A     Bm 
În templul Tău vreau să locuiesc... 
F#m      E    A   C#m 
Tu-mi cunoşti inima 
F#m     E     A   D 
Tu cunoşti viata mea 
  F#m  A  D 
Şi mă iubeşti 
  F#m  A  B 
Da,mă iubesti 
  F#m  A  D 
Tu mă iubeşti 
  F#m  A  B 
Da,mă iubeşti x2 

F#m   E   B 

F#m        E      B 
Să fiu aproape de Tine 
         F#m 
În locul Sfânt 
E        B 
Să mă inchïn

F#m   E   B


nu o ai mp3??? sammy? (la ID)
Adăugat în 21/08/2009
O am si in format mp3,ti-am adaugat
ID-ul daca vrei sa ti-o trimit.
Adăugat în 23/08/2009
Statistici
  • Vizualizări: 3510
  • Export PDF: 12
  • Comentarii: 2
  • Gramatical corect
  • Cu diacritice
  • Conținut incomplet
Opțiuni