Pot sa se mute muntii
Autor: Fitilul si chibritul  |  Album: fara album  |  Tematica: Lauda si inchinare
Resursa adaugata de sammy81 in 26/09/2011
    12345678910 10/10 X
Media 10 din 1 vot
Afisare acorduri:


     
Intro

     C#m           B                G#m              A 
E:--------------------------------------------------------------|
B:--------------------------------------------------------------|
G:--9----9h11----8------8h9-----4-----4---------6-------6-------|
D:--------------------------------------------------------------|
A:--------------------------------------------------------------|
E:----9--------------7-------------4-----4---4------5-5----5----|

     C#m            B                G#m             A 
E:--------------------------------------------------------------|
B:--------------------------------------------------------------|
G:--9----9h11----8------8h9-----4------4--------6-------6-------|
D:--------------------------------------------------------------|
A:--------------------------------------------------------------|
E:----9--------------7-------------4-4----4---4----5-5------5---|



C#m                G#m       B       A 
Fiecare floare imi spune de iubirea Ta
C#m              G#m             B     A 
Fiecare stea imi vorbeste cat de mare esti
E         B          A        C#m   B 
Natura intreaga Te slaveste neincetat
E             B              A        E 
Toate Tu le stapanesti caci Tu le-ai creat

Refren:
  B              C#m       G#m      C#m   
Pot sa se mute muntii Tu nu ma vei lasa
B                  C#m      A            E 
Dragostea Ta de la mine nicicand nu va pleca
B                C#m       G#m   C#m    
Chiar dealurile toate daca s-ar clatina
     A              B 
Pacea Ta de la mine Tu nu o vei lua
 
C#m G#m  B  A    C#m  G#m   B  A 

C#m            G#m      B       A 
Orice val se ridica la Cuvantul Tau
C#m            G#m         B                A 
Si oricand de mare ar fi furtuna Tu o poti opri
E            B         A       C#m    B 
In mana Ta sunt toate acestea Domnul meu
 E             B        A        E 
De aceea nu ma tem caci sunt al Tau

Refren:

  B             C#m       G#m      C#m   
Pot sa se mute muntii Tu nu ma vei lasa
B                  C#m      A          E 
Dragostea Ta de la mine nicicand nu va pleca
B                C#m       G#m   C#m    
Chiar dealurile toate daca s-ar clatina
     A               B 
Pacea Ta de la mine Tu nu o vei lua
 
C#m  G#m  B  A    C#m  G#m   B  A 

Pasaj:

C#m    B      A 
Esti salvarea mea
C#m          B      A 
Chiar daca lumea-ntreaga
C#m       B    A 
In foc s-ar scufunda
F#m         E     B 
Langa mine esti mereu

Refren:

B               C#m        G#m     C#m   
Pot sa se mute muntii Tu nu ma vei lasa
B                  C#m     A             E 
Dragostea Ta de la mine nicicand nu va pleca
B                C#m       G#m   C#m    
Chiar dealurile toate daca s-ar clatina
     A               B 
Pacea Ta de la mine Tu nu o vei lua
 
C#m G#m  B  A    C#m  G#m   B  A 





Până în acest moment nu au fost adăugate comentarii.
Statistici
  • Vizualizări: 4545
  • Export PDF: 5
  • Gramatical corect
  • Fără diacritice
  • Conținut incomplet
Opțiuni