Ridica-ti ochii catre cer
Autor: Born again  |  Album: fara album  |  Tematica: Lauda si inchinare
Resursa adaugata de sammy81 in 18/11/2010
    12345678910 10/10 X
Media 10 din 2 voturi
Afisare acorduri:


  Intro chitara bass

E:---------------------------------------------------------------------------|
B:---------------------------------------------------------------------------|
G:---------------------------------------------------------------------------|
D:---------------------------------------------------------------------------|
A:------5-----3----2-----------------------5----3----2-----3-3-3-3-3-3-------|
E:---3-----3-----3----3--3-3-3-3-3-3----3----3-----3-----3-------------------|


E:---------------------------------------------------------------------------|
B:---------------------------------------------------------------------------|
G:---------------------------------------------------------------------------|
D:---------------------------------------------------------------------------|
A:----5----3-----2-----0-0-0-0-0-0------5-----3-----2------5-5-5-5-5-5-5--5--|
E:--3----3----3-----3----------------3-----3-----3------3--------------------|


Strofa  (x2)

         G                                                 C 
E:----------------------------------------------------------------------------|
B:--------------------------------------------------------------------3h0-----|
G:---4-4\5/4-------4---5p4----4----4---4--4\5/4----------0----------0------0--|
D:-5----------5--5----5-----5----5---5----------5--2--2----2-2---2------------|
A:----------------------------------------------------------------------------|
E:----------------------------------------------------------------------------|

                        Am                                     Dsus4      D 
E:-----------------------------------------------------------------3--3---2---|
B:---------------------------1-------------------------------3--3---------3---|
G:----4--4\5/4----2---2----2-----2----4--4\5/4----2---2---2---------------2---|
D:--5-----------5---2----2-----2----5-----------5---0-------------------------|
A:----------------------------------------------------------------------------|
E:----------------------------------------------------------------------------|





De multe ori stai şi te gândeşti
Şi e normal să te întrebi oare de ce trăieşti?
Ce rost are viaţa şi de unde vii?
Încotro vei merge într-o bună zi?
Priveşti ca-ntr-o oglindă în inima ta
Şi nu te poti minţi, ştii că îţi lipseşte ceva
Dar oare ce? Dar oare ce?
Mereu ai încercat să-ţi umpli acest gol
Uitându-te în vieţile prietenilor
Tânjeai după un dram de fericire,
După ceva real, tanjeai după iubire.
Dar niemni nu e-n stare să ţi le ofere
Căci nu e om pe-acest pământ cu-aşa putere
Şi totuşi, este cineva...

Refren:
  G                     
Ridică-ţi ochii către cer
  Cadd9 
E tot ce pot acum să-ţi cer
              Am  Am7 
Şi dacă-ţi este greu
            Dsus4 D
Am să te-ajut şi eu
      G 
Îţi trebuie doar puţin curaj
       Cadd9 
Să te întorci la Dumnezeu
                Am 
Ştii bine că doar El
         Dsus4  D 
El te-a iubit mereu

Ce am eu vreau sa ai şi tu
Ca să te văd zâmbind, iubind, trăind
Ca să te văd râzând, cântând, dansând
Ca să te văd iertand, ca să te-aud spunând
Cum l-ai chemat pe Isus în inima ta
Şi stai de vorba zi de zi cu el în camera ta
Dar pentru-aceasta, trebuie sa faci ceva!













Până în acest moment nu au fost adăugate comentarii.
Statistici
  • Vizualizări: 9203
  • Export PDF: 17
  • Favorită: 1
  • Gramatical corect
  • Cu diacritice
  • Conținut incomplet
Opțiuni