M-atingi acum
Autor: CristoCentric  |  Album: fara album  |  Tematica: Diverse
Adaugata in 23/06/2009
    12345678910 10/10 X
Media 10 din 1 vot
Afisare acorduri:


Cristocentric - M-atingi acum

Intro chitara acustica

E|------------------------------------------------------------------------
B|------------------------------------------------------------------------
G|--7s9--7~----5-----5--7--7--7s9--7~----5-----5--7--7--5-------------------
D|----------9----7--------------------9----7------------------------------
A|------------------------------------------------------------------------
E|------------------------------------------------------------------------


E|-------------------------------------------------------------------------
B|-------------------------------------------------------------------------
G|---5--5--12--12---10--10--9--9--7--7----5--5----12---12--10-10--9--9s7---
D|-------------------------------------------------------------------------
A|--------------------------------------------------------------------------
E|--------------------------------------------------------------------------

E|---------------------------------------------------------------------------
B|---------------------------------------------------------------------------
G|--7h9p7-----5-----5--7--7---7s9--7~----5------5---7--7---5-----------------
D|---------9------7-------------------9-----7--------------------------------
A|---------------------------------------------------------------------------
E|---------------------------------------------------------------------------

E|-----------------------------------------------------------------------------
B|----------------------------------------------------------------------------
G|---3s5--5---7---12--12--10--10---7--7-----5--5--12--12--10--10--9---9s7--7--
D|----------------------------------------------------------------------------
A|----------------------------------------------------------------------------
E|-----------------------------------------------------------------------------

E|------------------------------------------------------------------------------
B|-------------------------------------------------------------------------------
G|---7s9--7------5--5s9----------------------------------------------------------
D|------------9------------------------------------------------------------------
A|-------------------------------------------------------------------------------
E|-------------------------------------------------------------------------------


       Am         C           G 
     Mai aproape de orice gand
                Am 
    De orice suflare
   Dm   C    F   G  Am   G 
    Este prezenta Ta
            C               G         Am 
   Ma coplesesti cu iubirea Ta tot mai tare
              C          F 
   Si  nu mi-e teama de nimic
                    Am       G 
  De bratul Tau eu sunt pazit


  Refren:

        C               G 
  M-atingi acum cu mana Ta
              Am           F 
  Fiorul Tau imi umple inima
              Dm               G 
  Esti susur bland ce inima mi-alina
                 F                 G 
  Imi umpli viata de lumina,Domnul Meu   x2


  Mai aproape de orice gand 
  De orice suflare
  Este prezenta Ta
  Ma coplesesti cu iubirea Ta tot mai tare
  Si nu mi-e teama de nimic
  De bratul Tau eu sunt pazit
  M-atingi acum cu mana Ta
  Fiorul Tau imi umple inima
  Esti susur bland ce inima mi-alina
  Imi umpli viata de lumina,Domnul Meu X4
  M-atingi acum cu mana Ta
  Fiorul Tau imi umple inima
  Esti susur bland ce inima mi-alina
  Imi umpli viata de lumïna,Domnul Meu


       D               A 
M-atingi acum cu mana Ta
          Bm          G 
Fiorul Tau imi umple inima
           Em              A 
Esti susur bland ce inima mi-alina
                G                 A 
Imi umpli viata de lumina,Domnul Meu    x2
   

Solo chitara electrica


 Legenda

s = slide
~ = vibrato
h = hammer-on
p = pull off


multumesc
multumesc mult pt acorduri
Adăugat în 16/08/2009
multumesc pentru acorduri :)
Adăugat în 02/02/2012 de LefterMirela
Statistici
  • Vizualizări: 5967
  • Export PDF: 14
  • Favorită: 1
  • Comentarii: 2
  • Fără diacritice
  • Conținut incomplet
Opțiuni