Te inalt (solo si bass)
Autor: CristoCentric  |  Album: fara album  |  Tematica: Diverse
Adaugata in 23/06/2009
    12345678910 0/10 X
Afisare acorduri:


Cristocentric  - Te inalt


Intro chitara electrica

Solo

e:-------------------------------------------------
B:-------------------------------------------------
G:-6/8~-6--6-6~---------—----------6-8-8/13-11----
D:-------9-----9-8-9--8\6-6~-6-8h9~------------11~-
A:-------------------------------------------------
E:-------------------------------------------------

e:----------------------------------------------------|
B:----------------------------------------------------|
G:-------13---11---------11--13h11-----11~-11\8-------|
D:-11/13---13----11-11h13----------13----------------|
A:----------------------------------------------------|
E:----------------------------------------------------|


Bass tab

 Gama Si

A:-2-2-2-2-2-2-------------------------------------------------|
E:---------------2-2-2-2-2-2---4-4-4-4-4-4---0-0-0-0-0-0---|

Gama Re bemol

A:-4-4-4-4-4-4-------------------------------------------------|
E:---------------4-4-4-4-4-4---6-6-6-6-6-6---2-2-2-2-2-2---|

Gama Si

      B               F# 
      Cat de mare esti Tu 
     G#m           E           B 
      Cat de mare este gloria Ta. 
     B            F# 
      Universul intreg 
     G#m          E            B 
      Intodeauna lauda-ti va canta. 
     B             F# 
      Mainile imi ridic
     G#m          E              B 
      Stiu o Tata stiu ca esti aici
     B        F#              
      Maretia Ta,
     F#         G#m   E 
      Imi umple inima...

Refren:


B                   F#           G#m 
Te inalt,te slavesc,te ador,te cinstesc,ma inchin
                E            B 
                Inima-ti daruiesc
B                    F#          G#m 
Te inalt,te slavesc,te ador,te cinstesc,ma inchin
                E            B 
                Inima-ti daruiesc


       B                   F# 
       Traiesc pentru Tine ,zambesc pentru Tine
       G#m        E           B 
       Cu a ta iubire ,ma coplesesti 
       B                   F# 
       Traiesc pentru Tine ,zambesc pentru Tine
       G#m        E           B 
       Cu a ta iubire ,ma coplesesti 


       B                   F# 
       Traiesc pentru Tine ,zambesc pentru Tine
       G#m        E           B 
       Cu a ta iubire ,ma coplesesti 
       B                   F# 
       Traiesc pentru Tine ,zambesc pentru Tine
       G#m        E           B             C# 
       Cu a ta iubire ,prima iubire esti Tu 

Gama Re bemol

   Refren:


C#                   G#          A#m 
Te inalt,te slavesc,te ador,te cinstesc,ma inchin
                F#           C# 
                Inima-ti daruiesc
C#                    G#            A#m 
Te inalt,te slavesc,te ador,te cinstesc,ma inchin
                F#           C# 
                Inima-ti daruiesc


Legenda

/ = slide
~ = vibrato
h = hammer-on
p = pull off
Sper sa va descurcati cu solo-ul de la inceput,mi-a luat ceva timp pana l-am scris,sper ca e cat de cat corect si sper sa va ajute...la fel si bass-ul.GBU all!
Adăugat în 22/06/2009
Statistici
  • Vizualizări: 5169
  • Export PDF: 14
  • Comentarii: 1
  • Gramatical corect
  • Fără diacritice
  • Conținut incomplet
Opțiuni