Isus,Calea mea
Autor: Decean  |  Album: fara album  |  Tematica: Diverse
Adaugata in 22/10/2009
    12345678910 0/10 X
Afisare acorduri:


Intro chitara electrica
e:---------------------------------------------------------------------|
B:---------------------------------------------------------------------|
G:--8-8-8-8---6-6-6-6--9-9-9-9--8-8-8-8--------------------8p6-8--9----|
D:--------------------------------------9-9-9-9-9-9-9-9-9--------------|
A:---------------------------------------------------------------------|
E:---------------------------------------------------------------------|

e:---------------------------------------------------------------------|
B:---------------------------------------------------------------------|
G:--8-8-8-8---6-6-6-6--9-9-9-9--8-8-8-8--------------------8p6-8--9----|
D:--------------------------------------9-9-9-9-9-9-9-9-9--------------|
A:---------------------------------------------------------------------|
E:---------------------------------------------------------------------|

B                         E 
Traiesc sa Te cunosc mai mult
B                      E 
Cuvantul Tau sa il ascult
F#                G#m     E            B 
Te rog condu-mi Tu pasii mei si inima mea
C#      E 
Pe calea Ta

G#m                E           B    F# 
Tot ce am nevoie esti tu Isus,Calea mea
G#m                 E         B            C# 
Inceputul meu ai fost si vei fi,vesnicia mea
G#m             E         B             F# 
Astazi vin Iti daruiesc toata dragostea mea
                 A 
Cu ingerii voi canta
E          B      
Te voi inalta
 E          B     E 
Te voi inalta

B                           E 
Traiesc sa Te cunosc mai mult
B                      E 
In Tine vreau sa ma ascund
F#               G#m    E     B 
Si linistea ce o gasesc,ma odihnesc
C#     E 
Si te privesc

G#m               E      B         F# 
Tot ce am nevoie esti tu Isus,Calea mea
G#m         E                B           C# 
Inceputul meu ai fost si vei fi,vesnicia mea
G#m         E           B               F# 
Astazi vin Iti daruiesc toata dragostea mea
                 A 
Cu ingerii voi canta
E          G#m 
Te voi inalta
 F#   B         C# 
O Isuse,te voi inalta
G#m                 F# 
Cu ingerii Iti voi canta
 B               C# 
Toata dragostea mea

G#m  A#m   B  C#   G#m  F#    B   C# 

G#m               E      B          F# 
Tot ce am nevoie esti tu Isus,Calea mea
G#m         E                B           C# 
Inceputul meu ai fost si vei fi,vesnicia mea

G#m               E      B          F# 
Tot ce am nevoie esti tu Isus,Calea mea
G#m         E                B           C# 
Inceputul meu ai fost si vei fi,vesnicia mea
G#m             E         B             F# 
Astazi vin Iti daruiesc toata dragostea mea
                 A 
Cu ingerii voi canta
E          B      
Te voi inalta
 F#   B         C# 
O Isuse,te voi inalta
G#m                 F# 
Cu ingerii Iti voi canta
 B               C# 
Toata dragostea mea


Până în acest moment nu au fost adăugate comentarii.
Statistici
  • Vizualizări: 2178
  • Export PDF: 8
  • Gramatical corect
  • Fără diacritice
  • Conținut incomplet
Opțiuni