Voi canta Domnului(tabulatura)
Autor: Anonim  |  Album: fara album  |  Tematica: Diverse
Resursa adaugata de Keops in 19/09/2010
    12345678910 0/10 X
Afisare acorduri:


E||--14--12--14--15--17-----|-----17/19--17--15--14-|
B||----------------------15-|-15--------------------|
G||-------------------------|-----------------------|
D||-------------------------|-----------------------|
A||-------------------------|-----------------------|
E||-------------------------|-----------------------|

E||-----17/19--19--19--17--15--14--15--14--12------|
B||-15-----------------------------------------15--|
G||------------------------------------------------|
D||------------------------------------------------|
A||------------------------------------------------|
E||------------------------------------------------|

E||------15--14--12-------(15)--(17)--(14)--|
B||--15-------------15-15-------------------|
G||-----------------------------------------|
D||-----------------------------------------|
A||-----------------------------------------|
E||-----------------------------------------|

_______________________________________________________


E||--14--12--14--15--17-----|-----17/19--17--15--14-|
B||----------------------15-|-15--------------------|
G||-------------------------|-----------------------|
D||-------------------------|-----------------------|
A||-------------------------|-----------------------|
E||-------------------------|-----------------------|

E||-----17/19--19--19--17--15--14--15--14--12------|
B||-15-----------------------------------------15--|
G||------------------------------------------------|
D||------------------------------------------------|
A||------------------------------------------------|
E||------------------------------------------------|

E||------15--14--12-------(15)--(17)--(14)--|
B||--15-------------15-15-------------------|
G||-----------------------------------------|
D||-----------------------------------------|
A||-----------------------------------------|
E||-----------------------------------------|
intrebare
Cum se foloseste tabulatura? Adica eu vad cele 6 corzi ale chitarii si cateva cifre/ numere pe ele ...... Ce imi indica acestea ? Va multumesc !
Un tanar in Oastea Domnului......!
Adăugat în 21/09/2010 de missionar
@Capatina Andrei
Deci....acele cifre reprezinta numarul fretului si cand este cifra 0(in cazul acesta 12) este nota libera...
De exemplu:
E||--1----------------|
B||------2------------|
G||---------3---------|
D||------------4------|
A||--------------------|
E||--------------------|

Fretul 1 pe coarda Mi
Fretul 2 pe coarda Si
Fretul 3 pe coarda Sol
Fretul 4 pe coarda Re

Cred k ai inteles ;)
Adăugat în 21/09/2010 de Keops
Statistici
  • Vizualizări: 2120
  • Export PDF: 11
  • Comentarii: 2
  • Gramatical incorect
  • Fără diacritice
  • Conținut incomplet
Opțiuni