Interfața site-ului a fost îmbunătățită și mai sus vedeți săgeți care indică unde se află acum fiecare element principal de navigare și căutare.

Iubirea lui e mult prea mare - tabultaura chitara
Autor: -  |  Album: -  |  Tematica: Diverse
Resursa adaugata de daniel2011 in 02/11/2017
    12345678910 0/10 X
Afisare acorduri:


   Iubirea lui e mult prea mare

Capodastru pe al doilea fret


-------------------------------0---------------------
-------------0--------------3-----3--3------0--------
----0--0--2--2-----------------------0------0--------
-------------0-----0----------------------------0----
----------------2-----2-----------------------2----2-
-------3-----3-----------3-----3-----3------3--------

----------------------------------------------
---3--3--0---------------1--0-----0-----------
------------2---------2--------2--0-----------
---------------0---0--------------0----0------
-----------------0-------------------2---2----
-3----3-----2---------------2-----3---------3-

-------------------------------0--------------
-------------0--------------3-----3--3------0-
----0--0--2--2-----------------------0------0-
-------------0-----0--------------------------
----------------2-----2-----------------------
-------3-----3-----------3-----3-----3------3-

-----------------------------------------------------
----------3--3--0---------------1--0-----------------
-------------------2---------2--------2--0-----------
--0-------------------0---0--------------0--0----0---
2----2------------------0----------------------2-----
--------3----3-----2---------------2-----3---------3-

Vers 2:

---3--3--3--0----------------3---3--0--------------------
------------1--------------------1-----3------0----------
------------0------0-------------0-----0------0----------
------------2---------2---------------------------0------
------3----------3-------3-------3--------------2----2---
---------------------------------------3------3---------3

--------------------------------------------
-3--3--0-----------------5---3-----------
----------2---------2----0---0-----------
-------------0---0----------------0------
---------------0---------3------2---2----
----3-----2------------------3---------3-

---3--3--3--0----------------3---3--0--------------------
------------1--------------------1-----3------0----------
------------0------0-------------0-----0------0----------
------------2---------2---------------------------0------
------3----------3-------3-------3--------------2----2---
---------------------------------------3------3---------3

--------------------------------------------
-3--3--0----------------0------------
----------2---------2------0---------
-------------0---0---------0----0------
---------------0--------2-----2---2----
----3-----2----------------3---------3-

Refren

---3--3--3--3---------3--2--0----------------------------------------------------------
------------1------------3-----3--0-----------3--3--0----------------5-----3-----------
------------0---0--------2-----0--0--------------------2---------2---0-----0-----------
--------------2---2------0------------0-------------------0---0-----------------0------
------3-----3-------3---------------2----2------------------0--------3--------2---2----
-------------------------------3--3---------3----3-----2-------------------3---------3-

---3--3--3--3---------3--2--0-------------------------------------------------------
------------1------------3-----3--0-----------3--3--0---------------0---------------
------------0---0--------2-----0--0--------------------2---------2-----0------------
--------------2---2------0------------0-------------------0---0--------0-----0------
------3-----3-------3---------------2----2------------------0-------2------2---2----
-------------------------------3--3---------3----3-----2---------------3-----------3-

Până în acest moment nu au fost adăugate comentarii.
Statistici
  • Vizualizări: 1079
  • Export PDF: 1
Opțiuni