Nu mergi de la mine Isus - tabulatura
Autor: Anonim  |  Album: fara album  |  Tematica: Încurajare
Resursa adaugata de daniel2011 in 10/09/2016
    12345678910 0/10 X
Afisare acorduri:


Nu mergi de la mine Isus


---2-------0---------------------------------0------0-------0-----2--------2----
---3-----3---3------2--3----0------------3---2----2---3-----2-----3------3------
---2--2-----------0----0--0-----2-----2------2--2-----0-----2--2--2----2--------
---0------------0---------------0---0--------2-----------0--2-----0--0----------
----------------------------------0---------------------------------------------
-------------3---------3------------------------------3-------------------------

---2-------0---------------------------------0-------------2----0------------------
---3-----3---3------2--3----0------------3---2----2---3---------------2--------2---
---2--2-----------0----0--0-----2-----2------2--2-----0---------------3----3-------
---0------------0---------------0---0--------2----------------0-------0------0-----
----------------------------------0------------------------0------0------0----------
-------------3---------3------------------------------3----------------------------


Refren:

--5----- 3---2-----------------------------------2-------0----------0-------------
------3------3-----3--5------3--0----0--------3--3----3-----3--2--3--------------
----2--------2--2---------2--------0----2--------2--2-------------------------
--4----------0----------2-------0----------0-----0----------------------------
----------------------4-----------------0----------------0-----------------
-----------------------------------------------------------------------------

---2-------0---------------------------------0-------------2----0------------------
---3-----3---3------2--3----0------------3---2----2---3---------------2--------2---
---2--2-----------0----0--0-----2-----2------2--2-----0---------------3----3-------
---0------------0---------------0---0--------2----------------0-------0------0-----
----------------------------------0------------------------0------0------0----------
-------------3---------3------------------------------3----------------------------
Până în acest moment nu au fost adăugate comentarii.
Statistici
  • Vizualizări: 1259
  • Export PDF: 2
Opțiuni