Ce bucurie am in Isus - tabulatura chitara
Autor: Anonim  |  Album: fara album  |  Tematica: Diverse
Resursa adaugata de daniel2011 in 05/07/2016
    12345678910 0/10 X
Afisare acorduri:



Blessed assurance

-----------------------------------------0------------------------------3-------2-------0-----------------------
----0-----------3--------3---------1--3-----3------3---------3---0---3--0----0--3----------3--2--3-------3------
----0---2---0---0-----0------------0--------0----0-----------0----------0--0----2---2-----------------2----------
----0-----------0--0------------0--2--------0--0---------0---0------------------0----------------0-----------------
-----------------------------------3----------------------------------------------------0-----------0--------------
----3-----------3------------3--------------3---------3------3----------3-----------------------------------------

-----------------------------------------0-----------------------------------------------------------------------
----0-----------3--------3---------1--3-----3------0---------------0---1-------------------------------------------
----0---2---0---0-----0------------0--------0----0-----------0--2------2----2---2-----2--0--2-----0------0----------
----0-----------0--0------------0--2--------0--0-------------0---------2--2-----2--2-----0--------0----0-----------
-----------------------------------3---------------------2-------------0--------0--------------4-----2--------------
----3-----------3------------3--------------3---------3------3---------------------------3--------3---------------

--------------3----------------0--0--0----------------------------0-------3-----0---2--2--0--2---------------
----3--3--3---0--------3-------1--------3------3-------3---0--3---1----1--1---------3--------3-------3-------
----2---------0-----0----------0--------0----0--------------------0--0----0--0------2--------2----2----------
----0------------0----------0-----------0--0----------------------------------------0--------0--0------------
-------------------------------3--------------------2-------------3-------3----------------------------------
--------------3-----------3-------------3--------3-----3-----------------------------------------------

----2--3--5--3----------------0--0--0------------------------------------------------------------------
-------------0--------3-------1--------3------0-------------0---1--------------------------------------
-------------0-----0--0-------0--------0----0----------0--2-----2----2--2----2---0--2-----0------0------
----0-----------0----------0-----------0--0------------0--------2--2----2--2-----0--------0----0-------
------------------------------3---------------------2-----------0-------0--------------4-----2----------
-------------3--------3--3-------------3---------3-----3-------------------------3--------3------------
Până în acest moment nu au fost adăugate comentarii.
Statistici
  • Vizualizări: 855
  • Export PDF: 2
  • Favorită: 1
Opțiuni