Decorul
Autor: Cătălin şi Ramona Lup  |  Album: Adevărul e Isus  |  Tematica: Diverse
Resursa adaugata de JorjeGeorge in 03/05/2013
    12345678910 10/10 X
Media 10 din 3 voturi
Afisare acorduri:


STR 1:
    D          E          F#m 
Aș vrea să mă rog dar nu pot
   D       E          F#m 
Cuvinte nu am să pot spune tot
          D      E      F#m 
Poate-ar fi mai bine să tac
     D          E       A 
Un moment de tăcere să las


REF:
         D     E     F#m 
Îndepărtează Doamne norul
           D      E         F#m 
Ce-asupra mea umbrește-asa dens
      D        E       F#m 
Aranjează Tu Doamne decorul
     D         E           A 
Luminos și frumos precum ești


STR 2:

Aștept acea pace deplina
Pe care doar Tu mi-o poți da
Dar încă ființa mie plină
De mare neliniștea mea


------------------------------------------------



eu folosesc acordurile astea:
Dsus2- XX0230
Emaj-  022100
F#m11- X44200
Amaj-  X02220

și cant cu ciupită asa:

    |Dsus2      |Emaj         |F#m11                    \X3
E|--------0------------0------------0-----------0-----| 
B|----------------------------------------------------|
G|------2---2-------1----1-------2----2------2-----2--|
D|---0------------------------------------------------|
A|---------------2------------4-----------4-----------|
E|----------------------------------------------------|


    |Dsus2      |Emaj         |Amaj
E|--------0------------0------------0-----------0-----|
B|----------------------------------------------------|
G|------2---2-------1----1-------2----2------2-----2--|
D|---0------------------------------------------------|
A|---------------2------------0-----------0-----------|
E|----------------------------------------------------|





Până în acest moment nu au fost adăugate comentarii.
Statistici
  • Vizualizări: 20024
  • Export PDF: 5
  • Favorită: 1
Opțiuni